Магия и эзотерика

Приворот и любовная магия

Форум о магии и магическая помощь - astarta.pp.ru



Форум по магии и Магическая помощь для Вас

Качественное решение проблем: любовная магия, приворот, отворот, заговор на любовь, снятие венца безбрачия


Вернуться   Магия и эзотерика > Все виды магии > Звезды говорят (гороскоп)

Звезды говорят (гороскоп) В разделе представлены гороскопы на каждую неделю для всех знаков Зодиака

Ответ
 
Опции темы
  #1  
Старый 28.04.2006, 03:21
Аватар для Ангел
Ангел Ангел вне форума
Маг Андрей
 
Регистрация: 29.10.2004
Адрес: Россия
Сообщений: 3,369
По умолчанию Календарь лунных дней для Москвы и СПб

Календарь лунных дней для Москвы
По данному календарю можно определить какой сегодня лунный день, в таблице указано начало лунных суток для Москвы. Первые лунные сутки наступают в новолуние и длятся до следующего восхода Луны, в этот момент наступает второй лунный день и он продолжается до начала третьего лунного дня (и так далее). В таблице указана дата и время начала лунных суток (данные лунные сутки заканчиваются, когда начинаются следуюшие). Время в таблице указано местное (московское) с учетом всех поправок.


Лунный деньКалендарный деньВремя начала
2826.045:28
2927.045:35
127.0423:43
228.045:45
329.045:59
430.046:21
51.056:58
62.057:55
73.059:08
84.0510:29
95.0511:51
106.0513:11
117.0514:28
128.0515:43
139.0516:59
1410.0518:17
1511.0519:38
1612.0521:03
17 13.05 22:33
18 15.05 0:01
19 16.05 1:17
20 17.05 2:12
21 18.05 2:44
22 19.05 3:03
23 20.05 3:15
24 21.05 3:24
25 22.05 3:30
26 23.05 3:36
27 24.05 3:43
28 25.05 3:52
29 26.05 4:04
30 27.05 4:22
1 27.05 9:25
2 28.05 4:52
3 29.05 5:40
4 30.05 6:47
5 31.05 8:07
6 1.06 9:31
7 2.06 10:52
8 3.06 12:10
9 4.06 13:26
10 5.06 14:41
11 6.06 15:57
12 7.06 17:16
13 8.06 18:39
149.0620:08
1510.0621:38
1611.0623:01
1713.060:05
1814.060:46
1915.061:09
2016.061:23
2117.061:32
2218.061:39
2319.061:46
2420.061:52
2521.062:00
2622.062:10
2723.062:25
2824.062:50
2925.063:30
125.0620:05
226.064:30
327.065:46
428.067:09
529.068:32
630.069:52

Плохие дни - места Сатаны - 9, 15, 29
Тяжелые дни - 4, 18, 23, 26
Хорошие дни - 3, 7, 12, 16, 24, 28
Дни, связанные с перерасходом энергии - 8, 11, 14, 19, 20, 25
__________________
Abyssus abyssum invocat. П.С. Для связи со мной, пишите на ezoterikcom@yandex.ru
Ответить с цитированием
  #2  
Старый 06.07.2006, 14:24
Аватар для Ангел
Ангел Ангел вне форума
Маг Андрей
 
Регистрация: 29.10.2004
Адрес: Россия
Сообщений: 3,369
По умолчанию

Календарь лунных дней для Москвы (продолжение)
По данному календарю можно определить какой сегодня лунный день, в таблице указано начало лунных суток для Москвы. Первые лунные сутки наступают в новолуние и длятся до следующего восхода Луны, в этот момент наступает второй лунный день и он продолжается до начала третьего лунного дня (и так далее). В таблице указана дата и время начала лунных суток (данные лунные сутки заканчиваются, когда начинаются следуюшие). Время в таблице указано местное (московское) с учетом всех поправок.

ЛунныйденьКалендарныйденьВремяначала
71.0711:09
82.0712:24
93.0713:39
104.0714:56
115.0716:16
126.0717:41
137.0719:10
148.0720:38
159.0721:52
1610.0722:42
1711.0723:12
1812.0723:29
1913.0723:40
2014.0723:48
2115.0723:55
2217.070:01
2318.070:08
2419.070:17
2520.070:31
2621.070:51
2722.071:25
2823.072:18
2924.073:29
3025.074:50
125.078:30
226.076:14
327.077:35
428.078:53
529.0710:09
630.0711:23
731.0712:39
81.0813:56
92.0815:18
103.0816:44
114.0818:12
125.0819:32
136.0820:34
147.0821:12
158.0821:34
169.0821:47
1710.0821:56
1811.0822:03
1912.0822:10
2013.0822:17
2114.0822:25
2215.0822:37
2316.0822:55
2417.0823:24
2519.080:10
2620.081:16
2721.082:35
2822.083:58
2923.085:20
123.0823:09
224.086:39
325.087:55
426.089:10
527.0810:25
628.0811:41
729.0813:01
830.0814:24
931.0815:50
101.0917:13
112.0918:22
123.0919:09
134.0919:36
145.0919:53
156.0920:04
167.0920:11
178.0920:18
189.0920:25
1910.0920:33
2011.0920:43
2112.0920:59
2213.0921:24
2314.0922:05
2415.0923:06
2517.090:22
2618.091:44
2719.093:07
2820.094:26
2921.095:43
3022.096:58
122.0915:45
223.098:13
324.099:29
425.0910:47
526.0912:09
627.0913:34
728.0914:57
829.0916:11
930.0917:05
101.1017:38
112.1017:58
123.1018:11
134.1018:19
145.1018:26
156.1018:33
167.1018:40
178.1018:50
189.1019:03
1910.1019:24
2011.1019:59
2112.1020:54
2213.1022:07
2314.1023:29
2416.100:52
2517.102:13
2618.103:31
2719.104:46
2820.106:00
2921.107:16
3022.108:34
122.109:14
223.109:55
324.1011:19
425.1012:44
526.1014:01
627.1015:01
728.1015:40
829.1015:03
930.1015:17
1031.1015:27
111.1115:34
122.1115:41
133.1115:48
144.1115:56
155.1116:07
166.1116:24
177.1116:53
188.1117:39
199.1118:47
2010.1120:08
2111.1121:34
2212.1122:57
2314.110:16
2415.111:32
2516.112:46
2617.114:01
2718.115:18
2819.116:38
2920.118:02
121.111:17
221.119:28
322.1110:49
423.1111:55
524.1112:40
625.1113:07
726.1113:24
827.1113:35
928.1113:43
1029.1113:49
1130.1113:56
121.1214:03
132.1214:13
143.1214:26
154.1214:49
165.1215:26
176.1216:24
187.1217:42
198.1219:09
209.1220:35
2110.1221:57
2211.1223:15
2313.120:30
2414.121:44
2515.123:00
2616.124:18
2717.125:40
2818.127:06
2919.128:30
3020.129:44
120.1217:00
221.1210:37
322.1211:10
423.1211:30
524.1211:42
625.1211:51
726.1211:58
827.1212:04
928.1212:11
1029.1212:19
1130.1212:31
1231.1212:49
__________________
Abyssus abyssum invocat. П.С. Для связи со мной, пишите на ezoterikcom@yandex.ru
Ответить с цитированием
  #3  
Старый 25.07.2006, 02:18
Аватар для Яна
Яна Яна вне форума
Постоянный посетитель
 
Регистрация: 15.03.2005
Сообщений: 50
По умолчанию

Ангел, огромная благодарность за верный расчет лунных суток:)
Ответить с цитированием
  #4  
Старый 05.09.2006, 13:46
Аватар для Седой Волк
Седой Волк Седой Волк вне форума
Новичок
 
Регистрация: 01.09.2006
Адрес: Санкт-Петербург
Сообщений: 8
Отправить сообщение для Седой Волк с помощью ICQ
По умолчанию

Вопрос:подходит ли этот расчёт дней для жителей СПб?
Ответить с цитированием
  #5  
Старый 05.09.2006, 13:58
Аватар для Ангел
Ангел Ангел вне форума
Маг Андрей
 
Регистрация: 29.10.2004
Адрес: Россия
Сообщений: 3,369
По умолчанию

Нет, для Санкт-Петербурга календарь будет иметь другой вид:


Лунный день-----Календарный день---Время начала
----------7---------------------------1.07----------------------11:32---------------------------
----------8---------------------------2.07----------------------12:53---------------------------
----------9---------------------------3.07----------------------14:15---------------------------
----------10-------------------------4.07----------------------15:38---------------------------
----------11-------------------------5.07----------------------17:07---------------------------
----------12-------------------------6.07----------------------18:43---------------------------
----------13-------------------------7.07----------------------20:26---------------------------
----------14-------------------------8.07----------------------22:12---------------------------
----------15-------------------------9.07----------------------23:38---------------------------
----------16-------------------------11.07----------------------0:14---------------------------
----------17-------------------------12.07----------------------0:24---------------------------
----------18-------------------------13.07----------------------0:26---------------------------
----------19-------------------------14.07----------------------0:27---------------------------
----------20-------------------------15.07----------------------0:26---------------------------
----------21-------------------------16.07----------------------0:25---------------------------
----------22-------------------------17.07----------------------0:25---------------------------
----------23-------------------------18.07----------------------0:24---------------------------
----------24-------------------------19.07----------------------0:25---------------------------
----------25-------------------------20.07----------------------0:28---------------------------
----------26-------------------------21.07----------------------0:35---------------------------
----------27-------------------------22.07----------------------0:55---------------------------
----------28-------------------------23.07----------------------1:44---------------------------
----------29-------------------------24.07----------------------3:06---------------------------
----------30-------------------------25.07----------------------4:42---------------------------
----------1---------------------------25.07----------------------8:30---------------------------
----------2---------------------------26.07----------------------6:17---------------------------
----------3---------------------------27.07----------------------7:48---------------------------
----------4---------------------------28.07----------------------9:13---------------------------
----------5---------------------------29.07--------------------10:36---------------------------
----------6---------------------------30.07--------------------11:57---------------------------
----------7---------------------------31.07--------------------13:19---------------------------
----------8---------------------------1.08----------------------14:44---------------------------
----------9---------------------------2.08----------------------16:15---------------------------
----------10-------------------------3.08----------------------17:54---------------------------
----------11-------------------------4.08----------------------19:39---------------------------
----------12-------------------------5.08----------------------21:18---------------------------
----------13-------------------------6.08----------------------22:16---------------------------
----------14-------------------------7.08----------------------22:33---------------------------
----------15-------------------------8.08----------------------22:37---------------------------
----------16-------------------------9.08----------------------22:38---------------------------
----------17-------------------------10.08--------------------22:38---------------------------
----------18-------------------------11.08--------------------22:37---------------------------
----------19-------------------------12.08--------------------22:36---------------------------
----------20-------------------------13.08--------------------22:35---------------------------
----------21-------------------------14.08--------------------22:35---------------------------
----------22-------------------------15.08--------------------22:37---------------------------
----------23-------------------------16.08--------------------22:42---------------------------
----------24-------------------------17.08--------------------22:57---------------------------
----------25-------------------------18.08--------------------23:34---------------------------
----------26-------------------------20.08----------------------0:48---------------------------
----------27-------------------------21.08----------------------2:22---------------------------
----------28-------------------------22.08----------------------3:58---------------------------
----------29-------------------------23.08----------------------5:30---------------------------
----------1---------------------------23.08--------------------23:09---------------------------
----------2---------------------------24.08----------------------6:57---------------------------
----------3---------------------------25.08----------------------8:20---------------------------
----------4---------------------------26.08----------------------9:41---------------------------
----------5---------------------------27.08--------------------11:03---------------------------
----------6---------------------------28.08--------------------12:26---------------------------
----------7---------------------------29.08--------------------13:55---------------------------
----------8---------------------------30.08--------------------15:29---------------------------
----------9---------------------------31.08--------------------17:10---------------------------
----------10-------------------------1.09----------------------18:52---------------------------
----------11-------------------------2.09----------------------20:11---------------------------
----------12-------------------------3.09----------------------20:41---------------------------
----------13-------------------------4.09----------------------20:48---------------------------
----------14-------------------------5.09----------------------20:50---------------------------
----------15-------------------------6.09----------------------20:50---------------------------
----------16-------------------------7.09----------------------20:49---------------------------
----------17-------------------------8.09----------------------20:48---------------------------
----------18-------------------------9.09----------------------20:47---------------------------
----------19-------------------------10.09--------------------20:47---------------------------
----------20-------------------------11.09--------------------20:48---------------------------
----------21-------------------------12.09--------------------20:51---------------------------
----------22-------------------------13.09--------------------21:01---------------------------
----------23-------------------------14.09--------------------21:29---------------------------
----------24-------------------------15.09--------------------22:33---------------------------
----------25-------------------------17.09----------------------0:04---------------------------
----------26-------------------------18.09----------------------1:40---------------------------
----------27-------------------------19.09----------------------3:13---------------------------
----------28-------------------------20.09----------------------4:41---------------------------
----------29-------------------------21.09----------------------6:06---------------------------
----------30-------------------------22.09----------------------7:27---------------------------
----------1---------------------------22.09--------------------15:45---------------------------
----------2---------------------------23.09----------------------8:49---------------------------
----------3---------------------------24.09--------------------10:12---------------------------
----------4---------------------------25.09--------------------11:38---------------------------
----------5---------------------------26.09--------------------13:10---------------------------
----------6---------------------------27.09--------------------14:48---------------------------
----------7---------------------------28.09--------------------16:29---------------------------
----------8---------------------------29.09--------------------17:59---------------------------
----------9---------------------------30.09--------------------18:45---------------------------
----------10-------------------------1.10-----------------------18:58---------------------------
----------11-------------------------2.10-----------------------19:02---------------------------
----------12-------------------------3.10-----------------------19:02---------------------------
----------13-------------------------4.10-----------------------19:01---------------------------
----------14-------------------------5.10-----------------------19:00---------------------------
----------15-------------------------6.10-----------------------18:59---------------------------
----------16-------------------------7.10-----------------------18:59---------------------------
----------17-------------------------8.10-----------------------18:59---------------------------
----------18-------------------------9.10-----------------------19:02---------------------------
----------19-------------------------10.10---------------------19:08---------------------------
----------20-------------------------11.10---------------------19:28---------------------------
----------21-------------------------12.10---------------------20:18---------------------------
----------22-------------------------13.10---------------------21:43---------------------------
----------23-------------------------14.10---------------------23:21---------------------------
----------24-------------------------16.10-----------------------0:56---------------------------
----------25-------------------------17.10-----------------------2:26---------------------------
----------26-------------------------18.10-----------------------3:51---------------------------
----------27-------------------------19.10-----------------------5:13---------------------------
----------28-------------------------20.10-----------------------6:34---------------------------
----------29-------------------------21.10-----------------------7:56---------------------------
----------1---------------------------22.10-----------------------9:14---------------------------
----------2---------------------------22.10-----------------------9:22---------------------------
----------3---------------------------23.10---------------------10:52---------------------------
----------4---------------------------24.10---------------------12:29---------------------------
----------5---------------------------25.10---------------------14:09---------------------------
----------6---------------------------26.10---------------------15:44---------------------------
----------7---------------------------27.10---------------------16:45---------------------------
----------8---------------------------28.10---------------------17:05---------------------------
----------9---------------------------29.10---------------------16:11---------------------------
----------10-------------------------30.10---------------------16:13---------------------------
----------11-------------------------31.10---------------------16:13---------------------------
----------12-------------------------1.11-----------------------16:12---------------------------
----------13-------------------------2.11-----------------------16:11---------------------------
----------14-------------------------3.11-----------------------16:10---------------------------
----------15-------------------------4.11-----------------------16:11---------------------------
----------16-------------------------5.11-----------------------16:12---------------------------
----------17-------------------------6.11-----------------------16:17---------------------------
----------18-------------------------7.11-----------------------16:30---------------------------
----------19-------------------------8.11-----------------------17:05---------------------------
----------20-------------------------9.11-----------------------18:18---------------------------
----------21-------------------------10.11---------------------19:55---------------------------
----------22-------------------------11.11---------------------21:33---------------------------
----------23-------------------------12.11---------------------23:06---------------------------
----------24-------------------------14.11-----------------------0:33---------------------------
----------25-------------------------15.11-----------------------1:56---------------------------
----------26-------------------------16.11-----------------------3:18---------------------------
----------27-------------------------17.11-----------------------4:39---------------------------
----------28-------------------------18.11-----------------------6:03---------------------------
----------29-------------------------19.11-----------------------7:32---------------------------
----------30-------------------------20.11-----------------------9:07---------------------------
----------1---------------------------21.11------------------------1:17---------------------------
----------2---------------------------21.11---------------------10:47---------------------------
----------3---------------------------22.11---------------------12:25---------------------------
----------4---------------------------23.11---------------------13:39---------------------------
----------5---------------------------24.11---------------------14:10---------------------------
----------6---------------------------25.11---------------------14:19---------------------------
----------7---------------------------26.11---------------------14:22---------------------------
----------8---------------------------27.11---------------------14:23---------------------------
----------9---------------------------28.11---------------------14:23---------------------------
----------10-------------------------29.11---------------------14:22---------------------------
----------11-------------------------30.11---------------------14:21---------------------------
----------12-------------------------1.12-----------------------14:21---------------------------
----------13-------------------------2.12-----------------------14:22---------------------------
----------14-------------------------3.12-----------------------14:25---------------------------
----------15-------------------------4.12-----------------------14:34---------------------------
----------16-------------------------5.12-----------------------14:57---------------------------
----------17-------------------------6.12-----------------------15:52---------------------------
----------18-------------------------7.12-----------------------17:23---------------------------
----------19-------------------------8.12-----------------------19:03---------------------------
----------20-------------------------9.12-----------------------20:41---------------------------
----------21-------------------------10.12----------------------22:12---------------------------
----------22-------------------------11.12----------------------23:37---------------------------
----------23-------------------------13.12-----------------------0:59---------------------------
----------24-------------------------14.12-----------------------2:20---------------------------
----------25-------------------------15.12-----------------------3:42---------------------------
----------26-------------------------16.12-----------------------5:09---------------------------
----------27-------------------------17.12-----------------------6:41---------------------------
----------28-------------------------18.12-----------------------8:19---------------------------
----------29-------------------------19.12---------------------10:00---------------------------
----------30-------------------------20.12---------------------11:27---------------------------
----------1---------------------------20.12---------------------17:00---------------------------
----------2---------------------------21.12---------------------12:13---------------------------
----------3---------------------------22.12---------------------12:27---------------------------
----------4---------------------------23.12---------------------12:32---------------------------
----------5---------------------------24.12---------------------12:33---------------------------
----------6---------------------------25.12---------------------12:33---------------------------
----------7---------------------------26.12---------------------12:33---------------------------
----------8---------------------------27.12---------------------12:32---------------------------
----------9---------------------------28.12---------------------12:32---------------------------
----------10-------------------------29.12---------------------12:32---------------------------
----------11-------------------------30.12---------------------12:34---------------------------
----------12-------------------------31.12---------------------12:40---------------------------
__________________
Abyssus abyssum invocat. П.С. Для связи со мной, пишите на ezoterikcom@yandex.ru
Ответить с цитированием
  #6  
Старый 05.09.2006, 20:17
Аватар для Седой Волк
Седой Волк Седой Волк вне форума
Новичок
 
Регистрация: 01.09.2006
Адрес: Санкт-Петербург
Сообщений: 8
Отправить сообщение для Седой Волк с помощью ICQ
По умолчанию

Благодарю,Ангел. :)
Ответить с цитированием
  #7  
Старый 05.09.2006, 23:54
Аватар для Ангел
Ангел Ангел вне форума
Маг Андрей
 
Регистрация: 29.10.2004
Адрес: Россия
Сообщений: 3,369
По умолчанию

Не за что. Извините, что вид не очень презентабельный. Но вставлять таблицы в форум очень проблематичное занятие. Поэтому для скорости решил сделать с черточками :) Да, ну и конечно, календарь приведен до конца 2006 года. Потом нужно будет обновить.
__________________
Abyssus abyssum invocat. П.С. Для связи со мной, пишите на ezoterikcom@yandex.ru
Ответить с цитированием
  #8  
Старый 08.09.2006, 04:14
Аватар для Zingara
Zingara Zingara вне форума
Солнечная дочь Вселенной
 
Регистрация: 09.08.2006
Сообщений: 311
По умолчанию

А как быть с другими городами? Как считать эти самые лунные дни? Доброй ночи всем..
Ответить с цитированием
  #9  
Старый 11.09.2006, 19:29
palms palms вне форума
Новичок
 
Регистрация: 25.04.2006
Сообщений: 12
По умолчанию

Плохие дни - места Сатаны - 9, 15, 29
Тяжелые дни - 4, 18, 23, 26
Хорошие дни - 3, 7, 12, 16, 24, 28
Дни, связанные с перерасходом энергии - 8, 11, 14, 19, 20, 25
__________________
Хорошие дни, тяжёлые дни, дни связанные с перерасходом энергии - всё это понятно! А вот что за дни такие, плохие, которые зовуться места Сатаны??? Что в них особенного? Можно ли в эти дни проводить какие-либо ритуалы???
Ответить с цитированием
  #10  
Старый 12.09.2006, 07:02
Аватар для Ангел
Ангел Ангел вне форума
Маг Андрей
 
Регистрация: 29.10.2004
Адрес: Россия
Сообщений: 3,369
По умолчанию

Цитата:
Сообщение от Zingara
А как быть с другими городами? Как считать эти самые лунные дни? Доброй ночи всем..
Вы здесь оставляйте заявочку.
__________________
Abyssus abyssum invocat. П.С. Для связи со мной, пишите на ezoterikcom@yandex.ru
Ответить с цитированием
Ответ

Опции темы

Ваши права в разделе
Вы можете создавать новые темы
Вы можете отвечать в темах
Вы не можете прикреплять вложения
Вы не можете редактировать свои сообщения

BB коды Вкл.
Смайлы Вкл.
[IMG] код Вкл.
HTML код Вкл.



Текущее время: 14:04. Часовой пояс GMT +4.


Магия и эзотерика - ASTARTA.PP.RU © 2004-2019
Магические услуги: любовная практическая магия, приворот - ASTARTA.INFO © 2006-2019
Маг и магические инструменты - EZOTERIK.COM © 2008-2019
Powered by vBulletin® Version 3.8.7
Copyright ©2000 - 2019, vBulletin Solutions, Inc. Перевод: zCarot
Копирование материалов, статей и другой информации с форума и сайта возможно только при согласии авторов

Rambler's Top100 Рейтинг@Mail.ru Рейтинг SunHome.ru ТОП-777: рейтинг сайтов, развивающих Человека